  0
SECTION
  2
HEADER
  9
$LIMMIN
 10
0.000000
 20
0.000000
  9
$LIMMAX
 10
190.459789
 20
287.000000
  9
$EXTMIN
 10
0.000000
 20
0.000000
  9
$EXTMAX
 10
190.459789
 20
287.000000
  9
$ANGBASE
 50
0.000000
  9
$ANGDIR
 70
0
  9
$INSUNITS
 70
4
  9
$DIMALT
 70
4
  9
$DIMLUNIT
 70
2
  9
$DIMASZ
 40
3.000000
  9
$DIMTXT
 40
5.000000
  9
$DIMRND
 40
0.010000
  9
$DIMEXE
 40
2.000000
  9
$DIMEXO
 40
2.000000
  9
$DIMAUNIT
 70
0
  9
$DIMADEC
 70
2
  9
$GRIDUNIT
 10
1.000000
 20
1.000000
  9
$PLIMMIN
 10
0.000000
 20
0.000000
  9
$PLIMMAX
 10
210.000000
 20
297.000000
  9
$PSVPSCALE
 40
1.000000
  0
ENDSEC
  0
SECTION
  2
TABLES
  0
TABLE
  2
LTYPE
 70
     1
  0
LTYPE
  2
CONTINUOUS
 70
    64
  3
Ausgez
 72
    65
 73
  0
 40
0.000000
  0
ENDTAB
  0
TABLE
  2
LAYER
 70
     1
  0
LAYER
  2
default
 70
    64
 62
0
  6
CONTINUOUS
  0
ENDTAB
  0
ENDSEC
  0
SECTION
  2
BLOCKS
  0
ENDSEC
  0
SECTION
  2
ENTITIES
  0
TEXT
  8
default
  6
CONTINUOUS
 10
20.000000
 20
275.000000
 40
12.000000
 50
0.000000
 72
0
  7
Normal#1.200000#7.200000
  1
Kurvenmodulplanungsbogen
 39
0
 62
0
  0
LINE
  8
default
  6
CONTINUOUS
 10
20.000000
 20
20.000000
 11
20.000000
 21
265.000000
 39
0
 62
0
  0
LINE
  8
default
  6
CONTINUOUS
 10
15.000000
 20
25.000000
 11
190.000000
 21
25.000000
 39
0
 62
0
  0
ARC
  8
default
  6
CONTINUOUS
 10
20.000000
 20
25.000000
 40
80.000000
 50
0.000000
 51
90.000000
 39
0
 62
0
  0
ARC
  8
default
  6
CONTINUOUS
 10
20.000000
 20
25.000000
 40
100.000000
 50
0.000000
 51
90.000000
 39
0
 62
0
  0
ARC
  8
default
  6
CONTINUOUS
 10
20.000000
 20
25.000000
 40
125.000000
 50
0.000000
 51
90.000000
 39
0
 62
0
  0
ARC
  8
default
  6
CONTINUOUS
 10
20.000000
 20
25.000000
 40
150.000000
 50
0.000000
 51
90.000000
 39
0
 62
0
  0
ARC
  8
default
  6
CONTINUOUS
 10
20.000000
 20
25.000000
 40
175.000000
 50
13.469778
 51
90.000000
 39
0
 62
0
  0
ARC
  8
default
  6
CONTINUOUS
 10
20.000000
 20
25.000000
 40
200.000000
 50
31.664894
 51
90.000000
 39
0
 62
0
  0
ARC
  8
default
  6
CONTINUOUS
 10
20.000000
 20
25.000000
 40
5.000000
 50
0.000000
 51
90.000000
 39
0
 62
0
  0
TEXT
  8
default
  6
CONTINUOUS
 10
100.000000
 20
22.000000
 40
2.000000
 50
0.000000
 72
0
  7
Normal#0.200000#1.200000
  1
800
 39
0
 62
0
  0
TEXT
  8
default
  6
CONTINUOUS
 10
120.000000
 20
22.000000
 40
2.000000
 50
0.000000
 72
0
  7
Normal#0.200000#1.200000
  1
1000
 39
0
 62
0
  0
TEXT
  8
default
  6
CONTINUOUS
 10
145.000000
 20
22.000000
 40
2.000000
 50
0.000000
 72
0
  7
Normal#0.200000#1.200000
  1
1250
 39
0
 62
0
  0
TEXT
  8
default
  6
CONTINUOUS
 10
170.000000
 20
22.000000
 40
2.000000
 50
0.000000
 72
0
  7
Normal#0.200000#1.200000
  1
1500
 39
0
 62
0
  0
TEXT
  8
default
  6
CONTINUOUS
 10
186.000000
 20
63.000000
 40
2.000000
 50
0.000000
 72
0
  7
Normal#0.200000#1.200000
  1
1750
 39
0
 62
0
  0
TEXT
  8
default
  6
CONTINUOUS
 10
186.000000
 20
127.000000
 40
2.000000
 50
0.000000
 72
0
  7
Normal#0.200000#1.200000
  1
2000
 39
0
 62
0
  0
LINE
  8
default
  6
CONTINUOUS
 10
20.000000
 20
265.000000
 11
190.000000
 21
265.000000
 39
0
 62
0
  0
LINE
  8
default
  6
CONTINUOUS
 10
190.000000
 20
265.000000
 11
190.000000
 21
25.000000
 39
0
 62
0
  0
LINE
  8
default
  6
CONTINUOUS
 10
23.589274
 20
28.589274
 11
190.091165
 21
195.091165
 39
0
 62
0
  0
LINE
  8
default
  6
CONTINUOUS
 10
21.316437
 20
29.913010
 11
84.150030
 21
264.411170
 39
0
 62
0
  0
LINE
  8
default
  6
CONTINUOUS
 10
84.150030
 20
264.411170
 11
84.186707
 21
264.548051
 39
0
 62
0
  0
LINE
  8
default
  6
CONTINUOUS
 10
22.006552
 20
29.727139
 11
121.590169
 21
264.331439
 39
0
 62
0
  0
LINE
  8
default
  6
CONTINUOUS
 10
22.567364
 20
29.446805
 11
158.275699
 21
264.500536
 39
0
 62
0
  0
ARC
  8
default
  6
CONTINUOUS
 10
20.000000
 20
25.000000
 40
230.002174
 50
42.172875
 51
89.748704
 39
0
 62
0
  0
TEXT
  8
default
  6
CONTINUOUS
 10
157.000000
 20
17.000000
 40
3.000000
 50
0.000000
 72
0
  7
Normal#0.300000#1.800000
  1
(c) Frank Wieduwilt 2001
 39
0
 62
0
  0
TEXT
  8
default
  6
CONTINUOUS
 10
80.000000
 20
262.000000
 40
2.000000
 50
0.000000
 72
0
  7
Normal#0.200000#1.200000
  1
15
 39
0
 62
0
  0
TEXT
  8
default
  6
CONTINUOUS
 10
115.000000
 20
262.000000
 40
2.000000
 50
0.000000
 72
0
  7
Normal#0.200000#1.200000
  1
22,5
 39
0
 62
0
  0
TEXT
  8
default
  6
CONTINUOUS
 10
153.000000
 20
262.000000
 40
2.000000
 50
0.000000
 72
0
  7
Normal#0.200000#1.200000
  1
30
 39
0
 62
0
  0
TEXT
  8
default
  6
CONTINUOUS
 10
187.000000
 20
195.000000
 40
2.000000
 50
0.000000
 72
0
  7
Normal#0.200000#1.200000
  1
45
 39
0
 62
0
  0
TEXT
  8
default
  6
CONTINUOUS
 10
185.000000
 20
178.000000
 40
2.000000
 50
0.000000
 72
0
  7
Normal#0.200000#1.200000
  1
2300
 39
0
 62
0
  0
TEXT
  8
default
  6
CONTINUOUS
 10
20.000000
 20
267.000000
 40
4.000000
 50
0.000000
 72
0
  7
Normal#0.400000#2.400000
  1
Maßstab: 1:10
 39
0
 62
0
  0
ENDSEC
  0
EOF
